ISO-10303-21;
HEADER;
/* Generated by software containing ST-Developer
 * from STEP Tools, Inc. (www.steptools.com) 
 */

FILE_DESCRIPTION(
/* description */ (''),
/* implementation_level */ '2;1');

FILE_NAME(
/* name */ 
'C:/Users/scrap/Desktop/RoboDog 3D Model/Body Attach pin.step',
/* time_stamp */ '2020-08-05T21:37:57+03:00',
/* author */ (''),
/* organization */ (''),
/* preprocessor_version */ 'ST-DEVELOPER v18.1',
/* originating_system */ 'Autodesk Translation Framework v9.3.0.1241',
/* authorisation */ '');

FILE_SCHEMA (('AUTOMOTIVE_DESIGN { 1 0 10303 214 3 1 1 }'));
ENDSEC;

DATA;
#10=MECHANICAL_DESIGN_GEOMETRIC_PRESENTATION_REPRESENTATION('',(#13),#86);
#11=SHAPE_REPRESENTATION_RELATIONSHIP('SRR','None',#93,#12);
#12=ADVANCED_BREP_SHAPE_REPRESENTATION('',(#14),#85);
#13=STYLED_ITEM('',(#102),#14);
#14=MANIFOLD_SOLID_BREP('Body1',#42);
#15=LINE('',#82,#16);
#16=VECTOR('',#73,3.00000004470348);
#17=CYLINDRICAL_SURFACE('',#60,3.00000004470348);
#18=FACE_OUTER_BOUND('',#21,.T.);
#19=FACE_OUTER_BOUND('',#22,.T.);
#20=FACE_OUTER_BOUND('',#23,.T.);
#21=EDGE_LOOP('',(#31));
#22=EDGE_LOOP('',(#32));
#23=EDGE_LOOP('',(#33,#34,#35,#36));
#24=CIRCLE('',#57,3.00000004470348);
#25=CIRCLE('',#59,3.00000004470348);
#26=VERTEX_POINT('',#76);
#27=VERTEX_POINT('',#79);
#28=EDGE_CURVE('',#26,#26,#24,.T.);
#29=EDGE_CURVE('',#27,#27,#25,.T.);
#30=EDGE_CURVE('',#27,#26,#15,.T.);
#31=ORIENTED_EDGE('',*,*,#28,.F.);
#32=ORIENTED_EDGE('',*,*,#29,.F.);
#33=ORIENTED_EDGE('',*,*,#29,.T.);
#34=ORIENTED_EDGE('',*,*,#30,.T.);
#35=ORIENTED_EDGE('',*,*,#28,.T.);
#36=ORIENTED_EDGE('',*,*,#30,.F.);
#37=PLANE('',#56);
#38=PLANE('',#58);
#39=ADVANCED_FACE('',(#18),#37,.T.);
#40=ADVANCED_FACE('',(#19),#38,.T.);
#41=ADVANCED_FACE('',(#20),#17,.T.);
#42=CLOSED_SHELL('',(#39,#40,#41));
#43=DERIVED_UNIT_ELEMENT(#45,1.);
#44=DERIVED_UNIT_ELEMENT(#88,3.);
#45=(
MASS_UNIT()
NAMED_UNIT(*)
SI_UNIT(.KILO.,.GRAM.)
);
#46=DERIVED_UNIT((#43,#44));
#47=MEASURE_REPRESENTATION_ITEM('density measure',
POSITIVE_RATIO_MEASURE(7850.),#46);
#48=PROPERTY_DEFINITION_REPRESENTATION(#53,#50);
#49=PROPERTY_DEFINITION_REPRESENTATION(#54,#51);
#50=REPRESENTATION('material name',(#52),#85);
#51=REPRESENTATION('density',(#47),#85);
#52=DESCRIPTIVE_REPRESENTATION_ITEM('Steel','Steel');
#53=PROPERTY_DEFINITION('material property','material name',#95);
#54=PROPERTY_DEFINITION('material property','density of part',#95);
#55=AXIS2_PLACEMENT_3D('placement',#74,#61,#62);
#56=AXIS2_PLACEMENT_3D('',#75,#63,#64);
#57=AXIS2_PLACEMENT_3D('',#77,#65,#66);
#58=AXIS2_PLACEMENT_3D('',#78,#67,#68);
#59=AXIS2_PLACEMENT_3D('',#80,#69,#70);
#60=AXIS2_PLACEMENT_3D('',#81,#71,#72);
#61=DIRECTION('axis',(0.,0.,1.));
#62=DIRECTION('refdir',(1.,0.,0.));
#63=DIRECTION('center_axis',(0.,-1.,0.));
#64=DIRECTION('ref_axis',(0.,0.,-1.));
#65=DIRECTION('center_axis',(0.,1.,0.));
#66=DIRECTION('ref_axis',(-1.,0.,0.));
#67=DIRECTION('center_axis',(0.,1.,0.));
#68=DIRECTION('ref_axis',(0.,0.,1.));
#69=DIRECTION('center_axis',(0.,-1.,0.));
#70=DIRECTION('ref_axis',(-1.,0.,0.));
#71=DIRECTION('center_axis',(0.,1.,0.));
#72=DIRECTION('ref_axis',(-1.,0.,0.));
#73=DIRECTION('',(0.,-1.,0.));
#74=CARTESIAN_POINT('',(0.,0.,0.));
#75=CARTESIAN_POINT('Origin',(-73.9999999999999,70.0000013411046,-85.0000014007092));
#76=CARTESIAN_POINT('',(3.00000004470348,70.0000013411046,-85.0000012665987));
#77=CARTESIAN_POINT('Origin',(0.,70.0000013411046,-85.0000012665987));
#78=CARTESIAN_POINT('Origin',(-72.9999999999999,88.0000013411046,-94.0000014007092));
#79=CARTESIAN_POINT('',(3.00000004470348,88.0000013411046,-85.0000012665987));
#80=CARTESIAN_POINT('Origin',(0.,88.0000013411046,-85.0000012665987));
#81=CARTESIAN_POINT('Origin',(0.,88.0000013411046,-85.0000012665987));
#82=CARTESIAN_POINT('',(3.00000004470348,88.0000013411046,-85.0000012665987));
#83=UNCERTAINTY_MEASURE_WITH_UNIT(LENGTH_MEASURE(0.01),#87,
'DISTANCE_ACCURACY_VALUE',
'Maximum model space distance between geometric entities at asserted c
onnectivities');
#84=UNCERTAINTY_MEASURE_WITH_UNIT(LENGTH_MEASURE(0.01),#87,
'DISTANCE_ACCURACY_VALUE',
'Maximum model space distance between geometric entities at asserted c
onnectivities');
#85=(
GEOMETRIC_REPRESENTATION_CONTEXT(3)
GLOBAL_UNCERTAINTY_ASSIGNED_CONTEXT((#83))
GLOBAL_UNIT_ASSIGNED_CONTEXT((#87,#89,#90))
REPRESENTATION_CONTEXT('','3D')
);
#86=(
GEOMETRIC_REPRESENTATION_CONTEXT(3)
GLOBAL_UNCERTAINTY_ASSIGNED_CONTEXT((#84))
GLOBAL_UNIT_ASSIGNED_CONTEXT((#87,#89,#90))
REPRESENTATION_CONTEXT('','3D')
);
#87=(
LENGTH_UNIT()
NAMED_UNIT(*)
SI_UNIT(.MILLI.,.METRE.)
);
#88=(
LENGTH_UNIT()
NAMED_UNIT(*)
SI_UNIT($,.METRE.)
);
#89=(
NAMED_UNIT(*)
PLANE_ANGLE_UNIT()
SI_UNIT($,.RADIAN.)
);
#90=(
NAMED_UNIT(*)
SI_UNIT($,.STERADIAN.)
SOLID_ANGLE_UNIT()
);
#91=SHAPE_DEFINITION_REPRESENTATION(#92,#93);
#92=PRODUCT_DEFINITION_SHAPE('',$,#95);
#93=SHAPE_REPRESENTATION('',(#55),#85);
#94=PRODUCT_DEFINITION_CONTEXT('part definition',#99,'design');
#95=PRODUCT_DEFINITION('Body Attach pin','Body Attach pin',#96,#94);
#96=PRODUCT_DEFINITION_FORMATION('',$,#101);
#97=PRODUCT_RELATED_PRODUCT_CATEGORY('Body Attach pin',
'Body Attach pin',(#101));
#98=APPLICATION_PROTOCOL_DEFINITION('international standard',
'automotive_design',2009,#99);
#99=APPLICATION_CONTEXT(
'Core Data for Automotive Mechanical Design Process');
#100=PRODUCT_CONTEXT('part definition',#99,'mechanical');
#101=PRODUCT('Body Attach pin','Body Attach pin',$,(#100));
#102=PRESENTATION_STYLE_ASSIGNMENT((#103));
#103=SURFACE_STYLE_USAGE(.BOTH.,#104);
#104=SURFACE_SIDE_STYLE('',(#105));
#105=SURFACE_STYLE_FILL_AREA(#106);
#106=FILL_AREA_STYLE('Steel - Satin',(#107));
#107=FILL_AREA_STYLE_COLOUR('Steel - Satin',#108);
#108=COLOUR_RGB('Steel - Satin',0.627450980392157,0.627450980392157,0.627450980392157);
ENDSEC;
END-ISO-10303-21;
